ISO-10303-21;
HEADER;
FILE_DESCRIPTION (( 'STEP AP203' ),
    '1' );
FILE_NAME ('Q-QZWP-R4-20-355-M.STEP',
    '2020-12-23T01:25:36',
    ( '' ),
    ( '' ),
    'SwSTEP 2.0',
    'SolidWorks 2020',
    '' );
FILE_SCHEMA (( 'CONFIG_CONTROL_DESIGN' ));
ENDSEC;

DATA;
#1 = CC_DESIGN_APPROVAL ( #298, ( #167 ) ) ;
#2 = CARTESIAN_POINT ( 'NONE',  ( -1.614212418857619014, 0.000000000000000000, 10.00000000000000000 ) ) ;
#3 = DIRECTION ( 'NONE',  ( 0.000000000000000000, 0.000000000000000000, 1.000000000000000000 ) ) ;
#4 = CC_DESIGN_PERSON_AND_ORGANIZATION_ASSIGNMENT ( #315, #306, ( #91 ) ) ;
#5 = CYLINDRICAL_SURFACE ( 'NONE', #265, 12.69999999999999929 ) ;
#6 = APPROVAL_ROLE ( '' ) ;
#7 = CIRCLE ( 'NONE', #255, 12.69999999999999929 ) ;
#8 = VERTEX_POINT ( 'NONE', #125 ) ;
#9 = DIRECTION ( 'NONE',  ( 0.000000000000000000, 0.000000000000000000, 1.000000000000000000 ) ) ;
#10 = ORIENTED_EDGE ( 'NONE', *, *, #78, .T. ) ;
#11 = DIRECTION ( 'NONE',  ( -1.000000000000000000, -0.000000000000000000, -0.000000000000000000 ) ) ;
#12 = VERTEX_POINT ( 'NONE', #147 ) ;
#13 = CIRCLE ( 'NONE', #202, 10.00000000000000000 ) ;
#14 = AXIS2_PLACEMENT_3D ( 'NONE', #275, #9, #121 ) ;
#15 = DIRECTION ( 'NONE',  ( 1.000000000000000000, 0.000000000000000000, 0.000000000000000000 ) ) ;
#16 = DIRECTION ( 'NONE',  ( -1.000000000000000000, -0.000000000000000000, -0.000000000000000000 ) ) ;
#17 = CARTESIAN_POINT ( 'NONE',  ( -2.500000000000000444, 0.000000000000000000, 0.000000000000000000 ) ) ;
#18 = AXIS2_PLACEMENT_3D ( 'NONE', #162, #35, #325 ) ;
#19 = DIRECTION ( 'NONE',  ( -1.000000000000000000, -0.000000000000000000, -0.000000000000000000 ) ) ;
#20 = ORIENTED_EDGE ( 'NONE', *, *, #234, .F. ) ;
#21 = PERSON_AND_ORGANIZATION_ROLE ( 'classification_officer' ) ;
#22 = ADVANCED_FACE ( 'NONE', ( #266 ), #83, .T. ) ;
#23 = CARTESIAN_POINT ( 'NONE',  ( -3.000000000000000000, 0.000000000000000000, 0.000000000000000000 ) ) ;
#24 = CIRCLE ( 'NONE', #227, 12.69999999999999929 ) ;
#25 = LOCAL_TIME ( 9, 25, 36.00000000000000000, #303 ) ;
#26 = DIRECTION ( 'NONE',  ( 0.000000000000000000, 0.000000000000000000, 1.000000000000000000 ) ) ;
#27 = DATE_AND_TIME ( #146, #33 ) ;
#28 = PRODUCT_RELATED_PRODUCT_CATEGORY ( 'detail', '', ( #150 ) ) ;
#29 = CARTESIAN_POINT ( 'NONE',  ( -1.614212418857619014, 0.000000000000000000, 0.000000000000000000 ) ) ;
#30 = ADVANCED_FACE ( 'NONE', ( #313 ), #258, .F. ) ;
#31 = DIRECTION ( 'NONE',  ( 0.000000000000000000, 0.000000000000000000, 1.000000000000000000 ) ) ;
#32 = DIRECTION ( 'NONE',  ( 0.000000000000000000, 0.000000000000000000, 1.000000000000000000 ) ) ;
#33 = LOCAL_TIME ( 9, 25, 36.00000000000000000, #329 ) ;
#34 = CARTESIAN_POINT ( 'NONE',  ( 2.500000000000000888, 1.224646799147353256E-15, -10.00000000000000000 ) ) ;
#35 = DIRECTION ( 'NONE',  ( 1.000000000000000000, 0.000000000000000000, 0.000000000000000000 ) ) ;
#36 = ORIENTED_EDGE ( 'NONE', *, *, #168, .T. ) ;
#37 = FACE_OUTER_BOUND ( 'NONE', #334, .T. ) ;
#38 = VERTEX_POINT ( 'NONE', #180 ) ;
#39 = VECTOR ( 'NONE', #241, 1000.000000000000000 ) ;
#40 = PLANE ( 'NONE',  #64 ) ;
#41 = ORIENTED_EDGE ( 'NONE', *, *, #217, .T. ) ;
#42 = PERSON_AND_ORGANIZATION ( #153, #291 ) ;
#43 = ORIENTED_EDGE ( 'NONE', *, *, #261, .F. ) ;
#44 = VERTEX_POINT ( 'NONE', #86 ) ;
#45 = APPROVAL_PERSON_ORGANIZATION ( #305, #298, #76 ) ;
#46 = EDGE_CURVE ( 'NONE', #8, #12, #62, .T. ) ;
#47 = CARTESIAN_POINT ( 'NONE',  ( -3.000000000000000444, 0.000000000000000000, 0.000000000000000000 ) ) ;
#48 = DIRECTION ( 'NONE',  ( 0.000000000000000000, 0.000000000000000000, 1.000000000000000000 ) ) ;
#49 = PRODUCT_DEFINITION_SHAPE ( 'NONE', 'NONE',  #204 ) ;
#50 = CARTESIAN_POINT ( 'NONE',  ( 2.999999999999999112, 0.000000000000000000, 0.000000000000000000 ) ) ;
#51 = ORIENTED_EDGE ( 'NONE', *, *, #46, .T. ) ;
#52 = APPROVAL_DATE_TIME ( #183, #193 ) ;
#53 = PLANE ( 'NONE',  #122 ) ;
#54 = APPROVAL_DATE_TIME ( #176, #298 ) ;
#55 = CIRCLE ( 'NONE', #103, 10.00000000000000000 ) ;
#56 = LINE ( 'NONE', #94, #107 ) ;
#57 = AXIS2_PLACEMENT_3D ( 'NONE', #274, #68, #222 ) ;
#58 = DIRECTION ( 'NONE',  ( -0.000000000000000000, 0.000000000000000000, 1.000000000000000000 ) ) ;
#59 = CARTESIAN_POINT ( 'NONE',  ( -2.500000000000000444, 10.00000000000000000, 0.000000000000000000 ) ) ;
#60 = CC_DESIGN_PERSON_AND_ORGANIZATION_ASSIGNMENT ( #259, #21, ( #167 ) ) ;
#61 = DIRECTION ( 'NONE',  ( -1.000000000000000000, -0.000000000000000000, -0.000000000000000000 ) ) ;
#62 = CIRCLE ( 'NONE', #330, 10.00000000000000000 ) ;
#63 = CALENDAR_DATE ( 2020, 23, 12 ) ;
#64 = AXIS2_PLACEMENT_3D ( 'NONE', #191, #140, #145 ) ;
#65 = EDGE_LOOP ( 'NONE', ( #192, #253, #310, #278 ) ) ;
#66 = ORIENTED_EDGE ( 'NONE', *, *, #238, .F. ) ;
#67 = EDGE_CURVE ( 'NONE', #118, #304, #285, .T. ) ;
#68 = DIRECTION ( 'NONE',  ( -1.000000000000000000, -0.000000000000000000, -0.000000000000000000 ) ) ;
#69 = AXIS2_PLACEMENT_3D ( 'NONE', #160, #271, #26 ) ;
#70 = CYLINDRICAL_SURFACE ( 'NONE', #256, 10.00000000000000000 ) ;
#71 = EDGE_LOOP ( 'NONE', ( #95, #205, #106, #190 ) ) ;
#72 = EDGE_CURVE ( 'NONE', #151, #251, #7, .T. ) ;
#73 = COORDINATED_UNIVERSAL_TIME_OFFSET ( 8, 0, .AHEAD. ) ;
#74 = CC_DESIGN_DATE_AND_TIME_ASSIGNMENT ( #27, #239, ( #167 ) ) ;
#75 = EDGE_CURVE ( 'NONE', #118, #169, #55, .T. ) ;
#76 = APPROVAL_ROLE ( '' ) ;
#77 = DIRECTION ( 'NONE',  ( 0.000000000000000000, 0.000000000000000000, 1.000000000000000000 ) ) ;
#78 = EDGE_CURVE ( 'NONE', #38, #44, #246, .T. ) ;
#79 = LOCAL_TIME ( 9, 25, 36.00000000000000000, #73 ) ;
#80 = COORDINATED_UNIVERSAL_TIME_OFFSET ( 8, 0, .AHEAD. ) ;
#81 = DIRECTION ( 'NONE',  ( 0.000000000000000000, 0.000000000000000000, 1.000000000000000000 ) ) ;
#82 = CC_DESIGN_PERSON_AND_ORGANIZATION_ASSIGNMENT ( #108, #101, ( #91 ) ) ;
#83 = CYLINDRICAL_SURFACE ( 'NONE', #286, 12.69999999999999929 ) ;
#84 = EDGE_LOOP ( 'NONE', ( #267, #219, #10, #333 ) ) ;
#85 = AXIS2_PLACEMENT_3D ( 'NONE', #23, #138, #316 ) ;
#86 = CARTESIAN_POINT ( 'NONE',  ( -3.000000000000000444, 0.000000000000000000, 10.00000000000000000 ) ) ;
#87 = CARTESIAN_POINT ( 'NONE',  ( -1.614212418857619014, 0.000000000000000000, 12.69999999999999929 ) ) ;
#88 = APPROVAL_STATUS ( 'not_yet_approved' ) ;
#89 = CARTESIAN_POINT ( 'NONE',  ( -1.614212418857619014, 1.224646799147353256E-15, -10.00000000000000000 ) ) ;
#90 = EDGE_CURVE ( 'NONE', #169, #299, #177, .T. ) ;
#91 = PRODUCT_DEFINITION_FORMATION_WITH_SPECIFIED_SOURCE ( 'ANY', '', #150, .NOT_KNOWN. ) ;
#92 = CARTESIAN_POINT ( 'NONE',  ( 2.500000000000000888, 0.000000000000000000, 0.000000000000000000 ) ) ;
#93 = DIRECTION ( 'NONE',  ( -1.000000000000000000, -0.000000000000000000, -0.000000000000000000 ) ) ;
#94 = CARTESIAN_POINT ( 'NONE',  ( -1.614212418857619014, 1.555301434917138433E-15, -12.69999999999999929 ) ) ;
#95 = ORIENTED_EDGE ( 'NONE', *, *, #163, .F. ) ;
#96 = PLANE ( 'NONE',  #18 ) ;
#97 = DIRECTION ( 'NONE',  ( 0.000000000000000000, 0.000000000000000000, 1.000000000000000000 ) ) ;
#98 =( NAMED_UNIT ( * ) PLANE_ANGLE_UNIT ( ) SI_UNIT ( $, .RADIAN. ) );
#99 = LOCAL_TIME ( 9, 25, 36.00000000000000000, #80 ) ;
#100 = PERSON_AND_ORGANIZATION_ROLE ( 'creator' ) ;
#101 = PERSON_AND_ORGANIZATION_ROLE ( 'design_supplier' ) ;
#102 = ORIENTED_EDGE ( 'NONE', *, *, #217, .F. ) ;
#103 = AXIS2_PLACEMENT_3D ( 'NONE', #50, #127, #81 ) ;
#104 = APPROVAL_STATUS ( 'not_yet_approved' ) ;
#105 = DIRECTION ( 'NONE',  ( 0.000000000000000000, 0.000000000000000000, 1.000000000000000000 ) ) ;
#106 = ORIENTED_EDGE ( 'NONE', *, *, #234, .T. ) ;
#107 = VECTOR ( 'NONE', #236, 1000.000000000000000 ) ;
#108 = PERSON_AND_ORGANIZATION ( #153, #291 ) ;
#109 = VECTOR ( 'NONE', #154, 1000.000000000000000 ) ;
#110 = CARTESIAN_POINT ( 'NONE',  ( 2.999999999999999112, 0.000000000000000000, 10.00000000000000000 ) ) ;
#111 = CARTESIAN_POINT ( 'NONE',  ( 3.000000000000000000, 0.000000000000000000, 12.69999999999999929 ) ) ;
#112 = DIRECTION ( 'NONE',  ( 0.000000000000000000, 0.000000000000000000, 1.000000000000000000 ) ) ;
#113 = DIRECTION ( 'NONE',  ( 0.000000000000000000, 0.000000000000000000, 1.000000000000000000 ) ) ;
#114 = DIRECTION ( 'NONE',  ( -1.000000000000000000, -0.000000000000000000, -0.000000000000000000 ) ) ;
#115 = DATE_AND_TIME ( #63, #292 ) ;
#116 = EDGE_LOOP ( 'NONE', ( #196, #165, #323, #20 ) ) ;
#117 = DESIGN_CONTEXT ( 'detailed design', #134, 'design' ) ;
#118 = VERTEX_POINT ( 'NONE', #149 ) ;
#119 = ORIENTED_EDGE ( 'NONE', *, *, #272, .F. ) ;
#120 = CC_DESIGN_PERSON_AND_ORGANIZATION_ASSIGNMENT ( #277, #252, ( #150 ) ) ;
#121 = DIRECTION ( 'NONE',  ( 1.000000000000000000, 0.000000000000000000, 0.000000000000000000 ) ) ;
#122 = AXIS2_PLACEMENT_3D ( 'NONE', #59, #187, #294 ) ;
#123 = CALENDAR_DATE ( 2020, 23, 12 ) ;
#124 = DIRECTION ( 'NONE',  ( -1.000000000000000000, -0.000000000000000000, -0.000000000000000000 ) ) ;
#125 = CARTESIAN_POINT ( 'NONE',  ( -2.500000000000000444, 1.224646799147353256E-15, -10.00000000000000000 ) ) ;
#126 = ORIENTED_EDGE ( 'NONE', *, *, #75, .T. ) ;
#127 = DIRECTION ( 'NONE',  ( -1.000000000000000000, -0.000000000000000000, -0.000000000000000000 ) ) ;
#128 = EDGE_LOOP ( 'NONE', ( #36, #301 ) ) ;
#129 = CLOSED_SHELL ( 'NONE', ( #257, #30, #178, #273, #139, #280, #262, #22, #244, #181 ) ) ;
#130 = CYLINDRICAL_SURFACE ( 'NONE', #174, 10.00000000000000000 ) ;
#131 = AXIS2_PLACEMENT_3D ( 'NONE', #182, #268, #58 ) ;
#132 = FACE_BOUND ( 'NONE', #152, .T. ) ;
#133 = DIRECTION ( 'NONE',  ( -1.000000000000000000, -0.000000000000000000, -0.000000000000000000 ) ) ;
#134 = APPLICATION_CONTEXT ( 'configuration controlled 3d designs of mechanical parts and assemblies' ) ;
#135 = ADVANCED_BREP_SHAPE_REPRESENTATION ( 'Q-QZWP-R4-20-355-M', ( #161, #14 ), #297 ) ;
#136 = FACE_OUTER_BOUND ( 'NONE', #226, .T. ) ;
#137 = EDGE_CURVE ( 'NONE', #12, #8, #264, .T. ) ;
#138 = DIRECTION ( 'NONE',  ( -1.000000000000000000, -0.000000000000000000, -0.000000000000000000 ) ) ;
#139 = ADVANCED_FACE ( 'NONE', ( #136 ), #130, .F. ) ;
#140 = DIRECTION ( 'NONE',  ( -1.000000000000000000, 0.000000000000000000, -0.000000000000000000 ) ) ;
#141 = EDGE_CURVE ( 'NONE', #203, #281, #24, .T. ) ;
#142 = MECHANICAL_CONTEXT ( 'NONE', #215, 'mechanical' ) ;
#143 = CC_DESIGN_PERSON_AND_ORGANIZATION_ASSIGNMENT ( #42, #100, ( #204 ) ) ;
#144 = ORIENTED_EDGE ( 'NONE', *, *, #232, .T. ) ;
#145 = DIRECTION ( 'NONE',  ( -0.000000000000000000, 0.000000000000000000, 1.000000000000000000 ) ) ;
#146 = CALENDAR_DATE ( 2020, 23, 12 ) ;
#147 = CARTESIAN_POINT ( 'NONE',  ( -2.500000000000000444, 0.000000000000000000, 10.00000000000000000 ) ) ;
#148 = DIRECTION ( 'NONE',  ( 0.000000000000000000, 0.000000000000000000, 1.000000000000000000 ) ) ;
#149 = CARTESIAN_POINT ( 'NONE',  ( 2.999999999999999112, 1.224646799147353256E-15, -10.00000000000000000 ) ) ;
#150 = PRODUCT ( 'Q-QZWP-R4-20-355-M', 'Q-QZWP-R4-20-355-M', '', ( #142 ) ) ;
#151 = VERTEX_POINT ( 'NONE', #216 ) ;
#152 = EDGE_LOOP ( 'NONE', ( #245, #126 ) ) ;
#153 = PERSON ( 'UNSPECIFIED', 'UNSPECIFIED', 'UNSPECIFIED', ('UNSPECIFIED'), ('UNSPECIFIED'), ('UNSPECIFIED') ) ;
#154 = DIRECTION ( 'NONE',  ( -1.000000000000000000, -0.000000000000000000, -0.000000000000000000 ) ) ;
#155 = DIRECTION ( 'NONE',  ( -1.000000000000000000, -0.000000000000000000, -0.000000000000000000 ) ) ;
#156 = PERSON_AND_ORGANIZATION ( #153, #291 ) ;
#157 = APPROVAL_PERSON_ORGANIZATION ( #327, #199, #6 ) ;
#158 = FACE_OUTER_BOUND ( 'NONE', #116, .T. ) ;
#159 = DIRECTION ( 'NONE',  ( 0.000000000000000000, 0.000000000000000000, 1.000000000000000000 ) ) ;
#160 = CARTESIAN_POINT ( 'NONE',  ( 3.000000000000000000, 0.000000000000000000, 0.000000000000000000 ) ) ;
#161 = MANIFOLD_SOLID_BREP ( 'Ðý×', #129 ) ;
#162 = CARTESIAN_POINT ( 'NONE',  ( -3.000000000000000000, 10.00000000000000000, 0.000000000000000000 ) ) ;
#163 = EDGE_CURVE ( 'NONE', #151, #203, #56, .T. ) ;
#164 = CARTESIAN_POINT ( 'NONE',  ( -3.000000000000000000, 0.000000000000000000, 12.69999999999999929 ) ) ;
#165 = ORIENTED_EDGE ( 'NONE', *, *, #163, .T. ) ;
#166 = ORIENTED_EDGE ( 'NONE', *, *, #261, .T. ) ;
#167 = SECURITY_CLASSIFICATION ( '', '', #207 ) ;
#168 = EDGE_CURVE ( 'NONE', #281, #203, #296, .T. ) ;
#169 = VERTEX_POINT ( 'NONE', #110 ) ;
#170 = DATE_AND_TIME ( #218, #25 ) ;
#171 = ORIENTED_EDGE ( 'NONE', *, *, #46, .F. ) ;
#172 = SHAPE_DEFINITION_REPRESENTATION ( #49, #135 ) ;
#173 = EDGE_LOOP ( 'NONE', ( #229, #171 ) ) ;
#174 = AXIS2_PLACEMENT_3D ( 'NONE', #319, #114, #113 ) ;
#175 = VECTOR ( 'NONE', #16, 1000.000000000000000 ) ;
#176 = DATE_AND_TIME ( #123, #79 ) ;
#177 = LINE ( 'NONE', #260, #175 ) ;
#178 = ADVANCED_FACE ( 'NONE', ( #320 ), #214, .F. ) ;
#179 = DIRECTION ( 'NONE',  ( -1.000000000000000000, -0.000000000000000000, -0.000000000000000000 ) ) ;
#180 = CARTESIAN_POINT ( 'NONE',  ( -3.000000000000000444, 1.224646799147353256E-15, -10.00000000000000000 ) ) ;
#181 = ADVANCED_FACE ( 'NONE', ( #242 ), #53, .F. ) ;
#182 = CARTESIAN_POINT ( 'NONE',  ( 2.999999999999999112, 12.69999999999999929, 0.000000000000000000 ) ) ;
#183 = DATE_AND_TIME ( #198, #99 ) ;
#184 = DIRECTION ( 'NONE',  ( -1.000000000000000000, -0.000000000000000000, -0.000000000000000000 ) ) ;
#185 = AXIS2_PLACEMENT_3D ( 'NONE', #92, #270, #31 ) ;
#186 = CARTESIAN_POINT ( 'NONE',  ( -3.000000000000000444, 0.000000000000000000, 0.000000000000000000 ) ) ;
#187 = DIRECTION ( 'NONE',  ( 1.000000000000000000, 0.000000000000000000, 0.000000000000000000 ) ) ;
#188 = CARTESIAN_POINT ( 'NONE',  ( -3.000000000000000000, 0.000000000000000000, 0.000000000000000000 ) ) ;
#189 = FACE_OUTER_BOUND ( 'NONE', #128, .T. ) ;
#190 = ORIENTED_EDGE ( 'NONE', *, *, #141, .F. ) ;
#191 = CARTESIAN_POINT ( 'NONE',  ( 2.500000000000000444, 10.00000000000000000, 0.000000000000000000 ) ) ;
#192 = ORIENTED_EDGE ( 'NONE', *, *, #75, .F. ) ;
#193 = APPROVAL ( #88, 'UNSPECIFIED' ) ;
#194 = APPLICATION_PROTOCOL_DEFINITION ( 'international standard', 'config_control_design', 1994, #215 ) ;
#195 = APPROVAL_STATUS ( 'not_yet_approved' ) ;
#196 = ORIENTED_EDGE ( 'NONE', *, *, #238, .T. ) ;
#197 = APPROVAL_ROLE ( '' ) ;
#198 = CALENDAR_DATE ( 2020, 23, 12 ) ;
#199 = APPROVAL ( #195, 'UNSPECIFIED' ) ;
#200 = CARTESIAN_POINT ( 'NONE',  ( -1.614212418857619014, 0.000000000000000000, 0.000000000000000000 ) ) ;
#201 = CARTESIAN_POINT ( 'NONE',  ( -1.614212418857619014, 1.224646799147353256E-15, -10.00000000000000000 ) ) ;
#202 = AXIS2_PLACEMENT_3D ( 'NONE', #212, #155, #32 ) ;
#203 = VERTEX_POINT ( 'NONE', #208 ) ;
#204 = PRODUCT_DEFINITION ( 'UNKNOWN', '', #91, #117 ) ;
#205 = ORIENTED_EDGE ( 'NONE', *, *, #72, .T. ) ;
#206 = VECTOR ( 'NONE', #184, 1000.000000000000000 ) ;
#207 = SECURITY_CLASSIFICATION_LEVEL ( 'unclassified' ) ;
#208 = CARTESIAN_POINT ( 'NONE',  ( -3.000000000000000000, 1.555301434917138433E-15, -12.69999999999999929 ) ) ;
#209 = DIRECTION ( 'NONE',  ( -1.000000000000000000, -0.000000000000000000, -0.000000000000000000 ) ) ;
#210 = AXIS2_PLACEMENT_3D ( 'NONE', #200, #19, #105 ) ;
#211 = EDGE_CURVE ( 'NONE', #304, #299, #13, .T. ) ;
#212 = CARTESIAN_POINT ( 'NONE',  ( 2.500000000000000888, 0.000000000000000000, 0.000000000000000000 ) ) ;
#213 = CC_DESIGN_APPROVAL ( #199, ( #204 ) ) ;
#214 = CYLINDRICAL_SURFACE ( 'NONE', #312, 10.00000000000000000 ) ;
#215 = APPLICATION_CONTEXT ( 'configuration controlled 3d designs of mechanical parts and assemblies' ) ;
#216 = CARTESIAN_POINT ( 'NONE',  ( 3.000000000000000000, 1.555301434917138433E-15, -12.69999999999999929 ) ) ;
#217 = EDGE_CURVE ( 'NONE', #44, #38, #302, .T. ) ;
#218 = CALENDAR_DATE ( 2020, 23, 12 ) ;
#219 = ORIENTED_EDGE ( 'NONE', *, *, #220, .T. ) ;
#220 = EDGE_CURVE ( 'NONE', #8, #38, #293, .T. ) ;
#221 = APPROVAL_PERSON_ORGANIZATION ( #156, #193, #197 ) ;
#222 = DIRECTION ( 'NONE',  ( 0.000000000000000000, 0.000000000000000000, 1.000000000000000000 ) ) ;
#223 = FACE_BOUND ( 'NONE', #284, .T. ) ;
#224 = ORIENTED_EDGE ( 'NONE', *, *, #78, .F. ) ;
#225 = APPLICATION_PROTOCOL_DEFINITION ( 'international standard', 'config_control_design', 1994, #134 ) ;
#226 = EDGE_LOOP ( 'NONE', ( #248, #119, #328, #166 ) ) ;
#227 = AXIS2_PLACEMENT_3D ( 'NONE', #188, #209, #317 ) ;
#228 = AXIS2_PLACEMENT_3D ( 'NONE', #186, #61, #3 ) ;
#229 = ORIENTED_EDGE ( 'NONE', *, *, #137, .F. ) ;
#230 = ORIENTED_EDGE ( 'NONE', *, *, #220, .F. ) ;
#231 = DIRECTION ( 'NONE',  ( 1.000000000000000000, 0.000000000000000000, 0.000000000000000000 ) ) ;
#232 = EDGE_CURVE ( 'NONE', #12, #44, #314, .T. ) ;
#233 = DIRECTION ( 'NONE',  ( -1.000000000000000000, -0.000000000000000000, -0.000000000000000000 ) ) ;
#234 = EDGE_CURVE ( 'NONE', #251, #281, #240, .T. ) ;
#235 = DIRECTION ( 'NONE',  ( -1.000000000000000000, -0.000000000000000000, -0.000000000000000000 ) ) ;
#236 = DIRECTION ( 'NONE',  ( -1.000000000000000000, -0.000000000000000000, -0.000000000000000000 ) ) ;
#237 = CC_DESIGN_SECURITY_CLASSIFICATION ( #167, ( #91 ) ) ;
#238 = EDGE_CURVE ( 'NONE', #251, #151, #283, .T. ) ;
#239 = DATE_TIME_ROLE ( 'classification_date' ) ;
#240 = LINE ( 'NONE', #87, #39 ) ;
#241 = DIRECTION ( 'NONE',  ( -1.000000000000000000, -0.000000000000000000, -0.000000000000000000 ) ) ;
#242 = FACE_OUTER_BOUND ( 'NONE', #173, .T. ) ;
#243 =( NAMED_UNIT ( * ) SI_UNIT ( $, .STERADIAN. ) SOLID_ANGLE_UNIT ( ) );
#244 = ADVANCED_FACE ( 'NONE', ( #290, #132 ), #269, .F. ) ;
#245 = ORIENTED_EDGE ( 'NONE', *, *, #272, .T. ) ;
#246 = CIRCLE ( 'NONE', #289, 10.00000000000000000 ) ;
#247 =( LENGTH_UNIT ( ) NAMED_UNIT ( * ) SI_UNIT ( .MILLI., .METRE. ) );
#248 = ORIENTED_EDGE ( 'NONE', *, *, #67, .F. ) ;
#249 = UNCERTAINTY_MEASURE_WITH_UNIT (LENGTH_MEASURE( 1.000000000000000082E-05 ), #247, 'distance_accuracy_value', 'NONE');
#250 = CC_DESIGN_DATE_AND_TIME_ASSIGNMENT ( #115, #322, ( #204 ) ) ;
#251 = VERTEX_POINT ( 'NONE', #111 ) ;
#252 = PERSON_AND_ORGANIZATION_ROLE ( 'design_owner' ) ;
#253 = ORIENTED_EDGE ( 'NONE', *, *, #67, .T. ) ;
#254 = CARTESIAN_POINT ( 'NONE',  ( 2.500000000000000888, 0.000000000000000000, 10.00000000000000000 ) ) ;
#255 = AXIS2_PLACEMENT_3D ( 'NONE', #309, #179, #77 ) ;
#256 = AXIS2_PLACEMENT_3D ( 'NONE', #300, #11, #97 ) ;
#257 = ADVANCED_FACE ( 'NONE', ( #158 ), #5, .T. ) ;
#258 = CYLINDRICAL_SURFACE ( 'NONE', #210, 10.00000000000000000 ) ;
#259 = PERSON_AND_ORGANIZATION ( #153, #291 ) ;
#260 = CARTESIAN_POINT ( 'NONE',  ( -1.614212418857619014, 0.000000000000000000, 10.00000000000000000 ) ) ;
#261 = EDGE_CURVE ( 'NONE', #299, #304, #324, .T. ) ;
#262 = ADVANCED_FACE ( 'NONE', ( #223, #189 ), #96, .F. ) ;
#263 = ORIENTED_EDGE ( 'NONE', *, *, #72, .F. ) ;
#264 = CIRCLE ( 'NONE', #335, 10.00000000000000000 ) ;
#265 = AXIS2_PLACEMENT_3D ( 'NONE', #29, #133, #112 ) ;
#266 = FACE_OUTER_BOUND ( 'NONE', #71, .T. ) ;
#267 = ORIENTED_EDGE ( 'NONE', *, *, #137, .T. ) ;
#268 = DIRECTION ( 'NONE',  ( -1.000000000000000000, 0.000000000000000000, -0.000000000000000000 ) ) ;
#269 = PLANE ( 'NONE',  #131 ) ;
#270 = DIRECTION ( 'NONE',  ( -1.000000000000000000, -0.000000000000000000, -0.000000000000000000 ) ) ;
#271 = DIRECTION ( 'NONE',  ( -1.000000000000000000, -0.000000000000000000, -0.000000000000000000 ) ) ;
#272 = EDGE_CURVE ( 'NONE', #169, #118, #308, .T. ) ;
#273 = ADVANCED_FACE ( 'NONE', ( #326 ), #40, .F. ) ;
#274 = CARTESIAN_POINT ( 'NONE',  ( 2.999999999999999112, 0.000000000000000000, 0.000000000000000000 ) ) ;
#275 = CARTESIAN_POINT ( 'NONE',  ( 0.000000000000000000, 0.000000000000000000, 0.000000000000000000 ) ) ;
#276 = EDGE_LOOP ( 'NONE', ( #43, #332 ) ) ;
#277 = PERSON_AND_ORGANIZATION ( #153, #291 ) ;
#278 = ORIENTED_EDGE ( 'NONE', *, *, #90, .F. ) ;
#279 = APPROVAL_DATE_TIME ( #170, #199 ) ;
#280 = ADVANCED_FACE ( 'NONE', ( #37 ), #70, .F. ) ;
#281 = VERTEX_POINT ( 'NONE', #164 ) ;
#282 = EDGE_LOOP ( 'NONE', ( #66, #263 ) ) ;
#283 = CIRCLE ( 'NONE', #69, 12.69999999999999929 ) ;
#284 = EDGE_LOOP ( 'NONE', ( #102, #224 ) ) ;
#285 = LINE ( 'NONE', #201, #321 ) ;
#286 = AXIS2_PLACEMENT_3D ( 'NONE', #331, #235, #148 ) ;
#287 = CARTESIAN_POINT ( 'NONE',  ( -2.500000000000000444, 0.000000000000000000, 0.000000000000000000 ) ) ;
#288 = CARTESIAN_POINT ( 'NONE',  ( -1.614212418857619014, 0.000000000000000000, 0.000000000000000000 ) ) ;
#289 = AXIS2_PLACEMENT_3D ( 'NONE', #47, #233, #48 ) ;
#290 = FACE_OUTER_BOUND ( 'NONE', #282, .T. ) ;
#291 = ORGANIZATION ( 'UNSPECIFIED', 'UNSPECIFIED', '' ) ;
#292 = LOCAL_TIME ( 9, 25, 36.00000000000000000, #295 ) ;
#293 = LINE ( 'NONE', #89, #109 ) ;
#294 = DIRECTION ( 'NONE',  ( 0.000000000000000000, 0.000000000000000000, -1.000000000000000000 ) ) ;
#295 = COORDINATED_UNIVERSAL_TIME_OFFSET ( 8, 0, .AHEAD. ) ;
#296 = CIRCLE ( 'NONE', #85, 12.69999999999999929 ) ;
#297 =( GEOMETRIC_REPRESENTATION_CONTEXT ( 3 ) GLOBAL_UNCERTAINTY_ASSIGNED_CONTEXT ( ( #249 ) ) GLOBAL_UNIT_ASSIGNED_CONTEXT ( ( #247, #98, #243 ) ) REPRESENTATION_CONTEXT ( 'NONE', 'WORKASPACE' ) );
#298 = APPROVAL ( #104, 'UNSPECIFIED' ) ;
#299 = VERTEX_POINT ( 'NONE', #254 ) ;
#300 = CARTESIAN_POINT ( 'NONE',  ( -1.614212418857619014, 0.000000000000000000, 0.000000000000000000 ) ) ;
#301 = ORIENTED_EDGE ( 'NONE', *, *, #141, .T. ) ;
#302 = CIRCLE ( 'NONE', #228, 10.00000000000000000 ) ;
#303 = COORDINATED_UNIVERSAL_TIME_OFFSET ( 8, 0, .AHEAD. ) ;
#304 = VERTEX_POINT ( 'NONE', #34 ) ;
#305 = PERSON_AND_ORGANIZATION ( #153, #291 ) ;
#306 = PERSON_AND_ORGANIZATION_ROLE ( 'creator' ) ;
#307 = DIRECTION ( 'NONE',  ( 0.000000000000000000, 0.000000000000000000, -1.000000000000000000 ) ) ;
#308 = CIRCLE ( 'NONE', #57, 10.00000000000000000 ) ;
#309 = CARTESIAN_POINT ( 'NONE',  ( 3.000000000000000000, 0.000000000000000000, 0.000000000000000000 ) ) ;
#310 = ORIENTED_EDGE ( 'NONE', *, *, #211, .T. ) ;
#311 = DIRECTION ( 'NONE',  ( 0.000000000000000000, 0.000000000000000000, -1.000000000000000000 ) ) ;
#312 = AXIS2_PLACEMENT_3D ( 'NONE', #288, #93, #159 ) ;
#313 = FACE_OUTER_BOUND ( 'NONE', #84, .T. ) ;
#314 = LINE ( 'NONE', #2, #206 ) ;
#315 = PERSON_AND_ORGANIZATION ( #153, #291 ) ;
#316 = DIRECTION ( 'NONE',  ( 0.000000000000000000, 0.000000000000000000, 1.000000000000000000 ) ) ;
#317 = DIRECTION ( 'NONE',  ( 0.000000000000000000, 0.000000000000000000, 1.000000000000000000 ) ) ;
#318 = CC_DESIGN_APPROVAL ( #193, ( #91 ) ) ;
#319 = CARTESIAN_POINT ( 'NONE',  ( -1.614212418857619014, 0.000000000000000000, 0.000000000000000000 ) ) ;
#320 = FACE_OUTER_BOUND ( 'NONE', #65, .T. ) ;
#321 = VECTOR ( 'NONE', #124, 1000.000000000000000 ) ;
#322 = DATE_TIME_ROLE ( 'creation_date' ) ;
#323 = ORIENTED_EDGE ( 'NONE', *, *, #168, .F. ) ;
#324 = CIRCLE ( 'NONE', #185, 10.00000000000000000 ) ;
#325 = DIRECTION ( 'NONE',  ( 0.000000000000000000, 0.000000000000000000, -1.000000000000000000 ) ) ;
#326 = FACE_OUTER_BOUND ( 'NONE', #276, .T. ) ;
#327 = PERSON_AND_ORGANIZATION ( #153, #291 ) ;
#328 = ORIENTED_EDGE ( 'NONE', *, *, #90, .T. ) ;
#329 = COORDINATED_UNIVERSAL_TIME_OFFSET ( 8, 0, .AHEAD. ) ;
#330 = AXIS2_PLACEMENT_3D ( 'NONE', #287, #15, #307 ) ;
#331 = CARTESIAN_POINT ( 'NONE',  ( -1.614212418857619014, 0.000000000000000000, 0.000000000000000000 ) ) ;
#332 = ORIENTED_EDGE ( 'NONE', *, *, #211, .F. ) ;
#333 = ORIENTED_EDGE ( 'NONE', *, *, #232, .F. ) ;
#334 = EDGE_LOOP ( 'NONE', ( #230, #51, #144, #41 ) ) ;
#335 = AXIS2_PLACEMENT_3D ( 'NONE', #17, #231, #311 ) ;
ENDSEC;
END-ISO-10303-21;
